Aller au contenu


Photo

betty lavilliers


  • Veuillez vous connecter pour répondre
12 réponses à ce sujet

#1 seb45

seb45

    Gratteux(se)

  • Membre
  • Pip
  • 8 messages

Posté 29 septembre 2013 - 11:28

Bonjour à toutes et à tous

voilà j'ai récupéré une tablature de Betty de Lavilliers cependant j'ai un doute sur une mesure j'ai l'impression qu'il manque un temps et j'ai du mal à poser les paroles dessus :

tu veilles t’es toute écorchée T'es comme un chat triste perdu sur la liste
||----------------- |-----------5----- |-------0---------|-------0---------|
||-------5--------- |-------5-----5---|-----1---1---1---|-----1---1-------|
||-----7---7---7---|-----7---7-------|---2-------2---2-|---2-------2----|
||---7-------7---7-|---6-----------0-|-3-------------- -|-3-----------0---|
||----------------- |----------------- |----------------- |-----------------|
||-7--------------- |-6-------------- -|----------------- |-----------------|


Voilà en espérant avoir tout fait dans les normes étant nouveau sur le forum merci pour votre tolérance

sébastien

Fichier(s) joint(s)

  • Fichier joint  betty.rtf   7,52 Ko   12 téléchargement(s)


#2 brestoa

brestoa

    Drogué de l abc

  • Modos
  • 561 messages
  • Gender:Male
  • Location:Pen Ar Bed
  • Interests:Musique, informatique

Posté 29 septembre 2013 - 01:09

Il manque la mesure 6

Code
                                                                                           Tu n’as pas sommeil
1                  2                 3                4                5                  6
|-----------------|-----------------|-----------------|-----------------|-0---------------|-----------------|
|---0-0-0-0-0-0-0-|-0---0------0----|---0-0-0-0-0-0-0-|-0-0-0-----------|-1---------------|-----------------|
|---2-2-2-2-2-2-2-|-2---2------2----|---2-2-2-2-2-2-2-|-2-2-2-----------|-2---------------|-----------------|
|---3-3-3-3-3-3-3-|-3^4-4------4----|---3-3-3-3-3-3-3-|-3-3-4-----------|-3---------------|-----------------|
|-0---------------|----------0---0--|-0---------------|-----------------|-----------------|-----------------|
|-----------------|-----------------|-----------------|-----------------|-----------------|-----------------|

tu fumes et
tu veilles
Lasus4/B      
||-----------------|-----------5-----|-------0---------|-------0---------|
||-------5---------|-------5-----5---|-----1---1---1---|-----1---1-------|
||-----7---7---7---|-----7---7-------|---2-------2---2-|---2-------2---0-|
||---7-------7---7-|---6-----------0-|-3---------------|-3-----------0---|
||-----------------|-----------------|-----------------|-----------------|
||-7---------------|-6---------------|-----------------|-----------------|


Le premier accord du chant (LAsus4/B 7x775x) ce joue après tu veilles

#3 seb45

seb45

    Gratteux(se)

  • Membre
  • Pip
  • 8 messages

Posté 29 septembre 2013 - 05:35

Bonsoir Brestoa

ok merci pour ta réponse ! Et il manquait la corde sol à vide en voyant ta réponse aussi sur la mesure 10
Merci bonne gratte à tous !

#4 brestoa

brestoa

    Drogué de l abc

  • Modos
  • 561 messages
  • Gender:Male
  • Location:Pen Ar Bed
  • Interests:Musique, informatique

Posté 29 septembre 2013 - 06:20

Morceau sympa à jouer, Bonne gratte guit.gif

#5 seb45

seb45

    Gratteux(se)

  • Membre
  • Pip
  • 8 messages

Posté 30 septembre 2013 - 09:15

bonjour Brestoa

oui morceau très sympa à jouer le prochain sera fortaleza ... D'ailleurs si des personnes ont la bonne tab ... Je
suis preneur !! Merci d'avance .

#6 brestoa

brestoa

    Drogué de l abc

  • Modos
  • 561 messages
  • Gender:Male
  • Location:Pen Ar Bed
  • Interests:Musique, informatique

Posté 30 septembre 2013 - 11:43

Sur 911tabs j'ai trouvé celle là :

Fichier joint  Lavilliers__Bernard___Fortalerza.txt   24,45 Ko   25 téléchargement(s)
A renommer en .gp4

#7 seb45

seb45

    Gratteux(se)

  • Membre
  • Pip
  • 8 messages

Posté 30 septembre 2013 - 07:58

Bonsoir Brestoa

et merci une nouvelle fois ! En espèrant un jour pouvoir me rendre utile aussi !

Bonne soirée


#8 brestoa

brestoa

    Drogué de l abc

  • Modos
  • 561 messages
  • Gender:Male
  • Location:Pen Ar Bed
  • Interests:Musique, informatique

Posté 30 septembre 2013 - 08:06

De rien, bonne soirée guitare icon_mrgreen.gif

#9 seb45

seb45

    Gratteux(se)

  • Membre
  • Pip
  • 8 messages

Posté 12 octobre 2013 - 06:03

Bonsoir
je ne sais pas si l'on peut reprendre un sujet ainsi ?? Aie pas sur la tête....
Je voulais revenir sur la mesure 10 et la corde SOL à vide je ne suis pas certain qu'elle
y soit en fait ...Enfin j'ai récupéré la partition avec tux et cette note là là n'est pas jouée ...
Des avis ???
Merci et toutes mes excuses pour le manque de procédures ...
Bonne gratte

#10 brestoa

brestoa

    Drogué de l abc

  • Modos
  • 561 messages
  • Gender:Male
  • Location:Pen Ar Bed
  • Interests:Musique, informatique

Posté 12 octobre 2013 - 06:53

Citation (seb45 @ Sat Oct 12, 2013 18:03) <{POST_SNAPBACK}>
Je voulais revenir sur la mesure 10 et la corde SOL à vide je ne suis pas certain qu'elle
y soit en fait ...Enfin j'ai récupéré la partition avec tux et cette note là là n'est pas jouée ...


Sur Betty ou Fortaleza scratch.gif

#11 seb45

seb45

    Gratteux(se)

  • Membre
  • Pip
  • 8 messages

Posté 13 octobre 2013 - 11:07

Bonjour Brestoa
tout d'abord merci de me répondre biggrin.gif
Ensuite oui effectivement je n'ai pas précisé c'est donc sur Betty au couplet mesure 10 et
pendant que j'y suis sur le refrain (numeroté sans tenir compte du couplet) j'ai un doute il me semble que la
mesure 12 est pareil que la 11 mais pas sur cette tabs

1 2 3 4 5
|-----------0-----|-----------0-----|-----------0-----|-----------0-----|
|-------2-----2---|-------2-----2---|-------2-----2---|-------2-----2---|
|-----2---2-----2-|-----2---2-----2-|-----2---2-------|-----2---2-----2-| x2
|---2-------------|---2-------------|---0-------------|---0-------------| puis
|-0---------------|-----------------|-----------------|-----------------|
|-----------------|-3---------------|-2-------------0-|-1---------------|
6 7 8 9 10
|-----------0-----|-----------------|-----------------|-----------------|
|-------2-----2---|-------5---------|-------2-----2---|-------2-----2---|
|-----2---2-----2-|-----4---4---4---|-----2---2-----2-|-----2---2-----2-|
|---2-------------|---2-------2---2-|---4-------4-----|---4-------4-----|
|-0---------------|-----------------|-----------------|-----------------|
|-----------------|-4---------------|-2---------------|-2---------------|
11 12 13 14
|-------1---------|-----------------|-----------------|-----------------||
|-----1---1---1---|-------1---------|-------3---------|-------5---------||
|---2-------2---2-|-----1---1---1---|-----2---2---2---|---------7---7---|| retour
|-----------------|---2-------2---2-|---3-------3---3-|-----6-----6---6-|| intro
|-----------------|-----------------|-2---------------|---7-------------||
|-1---------------|-1---------------|-----------------|-0---------------||


voilà j'espère avoir été assez clair blush.gif ce dont je doute moi même
Je ne sais pas comment envoyer des codes comme tu l'as fait plus haut ...
En tous les cas merci d'avance

#12 seb45

seb45

    Gratteux(se)

  • Membre
  • Pip
  • 8 messages

Posté 13 octobre 2013 - 11:09

re moi parce que je m'aperçois que ma numérotation n'a pas fonctionnée:-(
Peut être auras tu compris par toi même ce qui m'éviterais une difficile explication
à moins que tu me donnes la marche à suivre pour envoyer des tabs "propres"
merci


#13 brestoa

brestoa

    Drogué de l abc

  • Modos
  • 561 messages
  • Gender:Male
  • Location:Pen Ar Bed
  • Interests:Musique, informatique

Posté 13 octobre 2013 - 07:08

Tu as 16 mesures sur le refrain, voici la tab avec les paroles :

Code

   La                         La7/G        
  1                        2
||-----------------0-------|-----------------0-------|
||-----------2--------2----|-----------2--------2----|
||*-------2-----2--------2-|--------2-----2--------2-|
||*----2-------------------|-----2-------------------|
||--0----------------------|-------------------------|
||-------------------------|-3-----------------------|
    Betty                  

  Ré7M9/F#                     Ré7M9/F#  
3                           4  
|-------------------0-------|-----------------0-------|
|-------------2--------2----|-----------2--------2----|
|----------2-----2----------|--------2-----2--------2-|
|-------0-------------------|-----0-------------------|
|---------------------------|-------------------------|
|-2-----------------------0-|--1----------------------|
  faut pas craquer

  La                         La7/G  
5                          6  
|-----------------0--------|-----------------0--------|
|-----------2--------2-----|-----------2--------2-----|
|--------2-----2--------2--|--------2-----2--------2--|
|-----2--------------------|-----2--------------------|
|--0-----------------------|--------------------------|
|--------------------------|--3-----------------------|
  Betty                    

  Ré7M9/F#                    Ré7M9/F#  
7                          8  
|-----------------0--------|-----------------0--------|
|-----------2--------2-----|-----------2--------2-----|
|--------2-----2-----------|--------2-----2--------2--|
|-----0--------------------|-----0--------------------|
|--------------------------|--------------------------|
|--2--------------------0--|--1-----------------------|
  faut pas plonger

  La                         Mi/G#  
9                          10  
|-----------------0--------|--------------------------|
|-----------2--------2-----|-----------5--------------|
|--------2-----2-----------|--------4-----4-----4-----|
|-----2--------------------|-----2-----------2-----2--|
|--0-----------------------|--------------------------|
|-----------------------0--|--4-----------------------|
  Je sais                  

  Fa#m
11                         12  
|--------------------------|--------------------------|
|-----------2--------2-----|-----------2--------2-----|
|--------2-----2--------2--|--------2-----2--------2--|
|-----4-----------4--------|-----4-----------4--------|
|--------------------------|--------------------------|
|--2-----------------------|--2-----------------------|
  ils t’ont couchée là

   Fa  
13                         14  
|-----------1--------------|-----------1--------------|
|--------1-----1-----1-----|--------1-----1-----1-----|
|-----2-----------2-----2--|-----2-----------2-----2--|
|--------------------------|--------------------------|
|--------------------------|--------------------------|
|--1-----------------------|--1-----------------------|
  Et puis          

  Sim7b5                   Mi7  
15                        16  
|-------------------------|--------------------------||
|-----------3-------------|-----------5--------------||
|--------2-----2-----2----|--------------7-----7----*||
|-----3-----------3-----3-|--------6--------6-----6-*||
|--2----------------------|-----7--------------------||
|-------------------------|-0------------------------||
ils ont fermé leurs barreaux d’acier





0 utilisateur(s) li(sen)t ce sujet

0 membre(s), 0 invité(s), 0 utilisateur(s) anonyme(s)