Aller au contenu


Photo

Nantes Renan luce


  • Veuillez vous connecter pour répondre
1 réponse à ce sujet

#1 lolo9876

lolo9876

    Gratteux(se)

  • Newbie
  • Pip
  • 5 messages

Posté 31 décembre 2009 - 11:15



||--0----------------------|------------------------|
||-----------------0-------|-0----------------------|
||*----------0-------------|----------0-----2-------|
||*-------2-----------2----|-------2-----------2----|
||-------------------------|------------------------|
||--0-----------0----------|-2-----------2----------|



|------------------------|------------------------|
|----------0-------------|----------1-------------|
|-0--------------0-------|-2--------------2-------|
|-------0-----------0----|-------2-----------2----|
|------------------------|-0-----------0----------|
|-3-----------3----------|------------------------|



|------------------------|------------------------|
|-1--------------1-------|----------0-------------|
|----------0-------------|-0--------------0-------|
|-------2-----------2----|-------0-----------0----|
|-3-----------3----------|------------------------|
|------------------------|-3-----------3----------|



|------------------------|-------------||------------------------|
|----------------3-------|-------------||----------------4-------|
|-0----------------------|-0----------*||-4----------------------|
|-------0-----------0----|----0-------*||-------4-----------4----|
|------------------------|-------------||-2----------------------|
|-3-----------3----------|-3-----3--2--||-------------2----------|



|-2----------------------|------------------------|
|----------------4-------|-------0--------3-------|
|------------------------|------------------------|
|-------4-----------4----|-------2-----------2----|
|-2----------------------|-3-----------3----------|
|-------------2----------|------------------------|



|------------------------|------------------------|
|-0--------------0-------|-------1--------0-------|
|----------0-------------|-------------------2----|
|-------0-----------0----|-------2----------------|
|------------------------|-0----------------------|
|-3-----------3----------|-------------0----------|



|------------------------|------------------------|
|----------0-------------|-------1--------0-------|
|-0--------------0-------|------------------------|
|-------0-----------0----|-------2-----------0----|
|------------------------|-0----------------------|
|-3-----------3----------|-------------0----------|



|------------------------|------------------------|
|----------0-------------|------------------------|
|-0--------------0-------|----------2-----2-------|
|-------0-----------0----|-------0-----------0----|
|------------------------|-0----------------------|
|-3-----------3----------|-------------2----------|



|------------------------|---|---|
|-3----------------------|---|---|
|----------2-------------|---|---|
|-------0-----------0----|---|---|
|-0----------------------|---|---|
|-------------2----------|---|---|





#2 g@ël

g@ël

    JukeboxMan

  • Admin
  • 14 913 messages
  • Gender:Male
  • Location:Suisse - Neuchatel
  • Interests:Guitare, Batterie, Saxophone, Planche à Voile, Horlogerie

Posté 31 décembre 2009 - 06:08

????

Est-ce une proposition de tablature ? Dans ce cas, nous disposons d'un portail de proposition de tab (cf ma signature) smile.gif

Ajouter une partition?
http://www.abc-tabs.com/tab_adder/





0 utilisateur(s) li(sen)t ce sujet

0 membre(s), 0 invité(s), 0 utilisateur(s) anonyme(s)