Aller au contenu


Photo

Tablature transformation


  • Veuillez vous connecter pour répondre
3 réponses à ce sujet

#1 Beugelade

Beugelade

    Chti nouveau

  • Newbie
  • 1 messages

Posté 22 juin 2009 - 07:02

Salut !!

Je ne sais que lire les tablatures et je veux absolument jouer ce morceau à la gratte !!
Serai-t-il possible que quelqu'un me transforme ceci en tablature ???

Bb

e -o-|---|---|---|---|
B ---|---|-x-|---|---|
G ---|---|-x-|---|---|
D ---|---|-x-|---|---|
A -x-|---|---|---|---|
E -o-|---|---|---|---|


F

e -x-|---|---|---|---|
B -x-|---|---|---|---|
G ---|-x-|---|---|---|
D ---|---|-x-|---|---|
A ---|---|-x-|---|---|
E -x-|---|---|---|---|


Gm

e ---|---|-x-|---|---|
B ---|---|-x-|---|---|
G ---|---|-x-|---|---|
D ---|---|---|---|-x-|
A ---|---|---|---|-x-|
E ---|---|-x-|---|---|



Cm

e ---|---|-o-|---|---|
B -x-|---|---|---|---|
G ---|---|---|---|---|
D -x-|---|---|---|---|
A ---|---|-x-|---|---|
E ---|---|---|---|---|



Gm7
3 fr.
e -x-|---|---|---|---|
B ---|---|---|-x-|---|
G -x-|---|---|---|---|
D -x-|---|-o-|---|---|
A ---|---|-x-|---|---|
E -x-|---|---|---|---|



Cm7

e ---|---|---|---|---|
B -x-|---|---|---|---|
G ---|---|-x-|---|---|
D -x-|---|---|---|---|
A ---|---|-x-|---|---|
E ---|---|-o-|---|---|


#2 Raph

Raph

    Mr Pick

  • Membre d'Honneur
  • 7 025 messages
  • Location:Kaiserslautern (Allemagne)
  • Interests:Gratte, Grimpe,

Posté 22 juin 2009 - 08:55

Euh, ce sont des positions d'accord là. Il faudrait un titre de morceau, ca aide.
Do you like Kipling ?
I don't know, I've never kipled.

#3 PatTwo

PatTwo

    Joyeux Troubadour

  • Modos
  • 1 113 messages
  • Gender:Male
  • Location:77220 Tournan-en-Brie

Posté 22 juin 2009 - 08:58

Je pense qu'il faut jouer les "x" et pas les "o" contrairement à d'autres systèmes de notation.
Ca ferait dans notre notation habituelle :

Bb=x1333x
F=133211
Gm=355333
Cm=x3101x
Gm7=353363
Cm7=x3131x

Ou encore :
Code
.Bb   F    Gm   Cm   Gm7  Cm7
------1----3---------3---------
-3----1----3----1----6----1----
-3----2----3----0----3----3----
-3----3----5----1----3----1----
-1----3----5----3----5----3----
------1----3---------3---------


#4 rain

rain

    Chti nouveau

  • Newbie
  • 3 messages

Posté 29 juin 2009 - 12:10

salut moi je crois que les o ce jouent aussi mais d'une differente manière parcequ'il y'a des corde ou il n'y a ni o ni x
peutetre des humer on, (je ne suis pas un pro mais c bon de donner son avi)
bonne chance




0 utilisateur(s) li(sen)t ce sujet

0 membre(s), 0 invité(s), 0 utilisateur(s) anonyme(s)