Aller au contenu


Photo

aide pour le titre d'une music


  • Veuillez vous connecter pour répondre
3 réponses à ce sujet

#1 rain

rain

    Chti nouveau

  • Newbie
  • 3 messages

Posté 27 juin 2009 - 11:51

Salut y'a 5 ou 6 ans j'ai entendu une music classique je pence troo bien, j'ai esayer de la recomposer avec ma guitare j'ai eu ce résultat

CODE
|--------------------------------|--------------------------------|
|----1---0---------------0-------|----------1---0---------------0-|
|------------2---1---2-------1---|------------------2---1---2-----|
|2-------------------------------|2-----2-------------------------|
|--------------------------------|--------------------------------|
|--------------------------------|--------------------------------|

|       |       |       |        |       |       |       |        
|------0-------------------------|------------0-------------------|
|----------3---1---0---1---3---0-|----------------3---1---0---1---|
|--0-----------------------------|--0-----0-----------------------|
|--------------------------------|--------------------------------|
|--------------------------------|--------------------------------|
|--------------------------------|--------------------------------|

|       |       |       |        |       |       |       |        
|--------------------------------|--------------------------------|
|3-------------0-----------------|--------------------------------|
|------0---2-------2---0---------|--------------------------------|
|--------------------------2-----|--------------------------------|
|--------------------------------|--------------------------------|
|--------------------------------|--------------------------------|


pour les ecarts entre chaque note c n'est pas du tout ca et je m'en excuse mais j sui encor débutant alor si quelqu'un pouvais reconetre la music ^^ merci d'avance

#2 davidh

davidh

    Santanien(ne)

  • Membre
  • PipPipPip
  • 82 messages
  • Gender:Male
  • Location:Paris III

Posté 29 juin 2009 - 08:55

j'ai essayé de coller cette tab dans mon tux guitare mais ca ne 'me parle pas' pourrais tu nous dire ou as tu entendu cette mélodie (pub , film....) en faisant un recoupement on devrait pouvoir t'aider

D.

#3 Davanlo

Davanlo

    Modos

  • Modos
  • 3 337 messages
  • Gender:Male
  • Location:Liège
  • Interests:La musique en général et la guitare en particulier, la photo et l'informatique

Posté 29 juin 2009 - 10:58

Vangelis 1492 Conquest of Paradise
L'Irish Coffee est un repas d'homme moderne: caféine, alcool, sucres et graisses...
Image IPB

#4 rain

rain

    Chti nouveau

  • Newbie
  • 3 messages

Posté 29 juin 2009 - 12:02

salut et merci, ca fait 6 ans que je cherche blink.gif et je ne sait vraiment pas ou je l'ai entendu peutetre chez mon prof de music qui nous lancer quelques music sympas en classe, encore merci et merci rolleyes.gif




1 utilisateur(s) li(sen)t ce sujet

0 membre(s), 1 invité(s), 0 utilisateur(s) anonyme(s)