Aller au contenu


Photo

Problème d'accord


  • Veuillez vous connecter pour répondre
4 réponses à ce sujet

#1 Furious_D

Furious_D

    Chti nouveau

  • Newbie
  • 2 messages

Posté 23 avril 2012 - 12:22

Bonjour ,

Alors j'ai 16 ans, et j'ai commencé la guitare il y a maintenant 2 semaines même je ne connaissais rien dans ce domaine icon_mrgreen.gif ,mais maintenant j'arrive à jouer des tablatures même si des fois je galère un peu pour enchaîner les notes il y a un petit vide entre elles. Mais la j'ai vu que plus généralement, au lieu de mettre une tablature,il y a plutôt des accords ! ex : http://tabs.ultimate...ike_you_crd.htm

Et je ne sais pas comment faire ! je sais placer mes doigts et tout mais je ne sais pas quelle corde grater etc... je gratte toutes les cordes en même temps mais j'obtiens un son qui n'a aucun rapport avec la musique originale...

Donc je fais appel à votre expérience pour me sortir de cette impasse rolleyes.gif .

Merci .

#2 mkilvan

mkilvan

    Fan de Corbier

  • Membre
  • PipPip
  • 20 messages
  • Gender:Male
  • Location:13
  • Interests:Guitare<br />Harmonica

Posté 23 avril 2012 - 07:27

Essaie de jouer comme ça, ça devrait aller, mets un capo en 2 pour avoir la même tonalité, sinon c'est pas grave tu joueras justre un peu plus grave

E||---------------------------|
B||---------3-----------3-----|
G||*-----0-----0-----0-----0--|
D||*--------------------------|
A||---------------------------|
E||---3-----------3-----------|

--------------------------|
--------3-----------3-----|
-----2-----2-----2-----2--|
--------------------------|
--------------------------|
--2-----------2-----------|


--------0-----------0-----|
--------------------------|
-----0-----0-----0-----0--|
--------------------------|
--------------------------|
--0-----------0-----------|



--------0-----------0------||
---------------------------||
-----0-----0-----0-----0--*||
--------------------------*||
--3-----------3------------||
---------------------------||

Mkilvan


#3 Fullbazar

Fullbazar

    Joyeux Troubadour

  • Member_b
  • 5 022 messages
  • Location:Fullbannie
  • Interests:la dérision (denrée rare ici, faut pas s'attarder)

Posté 24 avril 2012 - 05:08

Citation (mkilvan @ Mon Apr 23, 2012 21:27) <{POST_SNAPBACK}>
E||---------------------------|
B||---------3-----------3-----|
G||*-----0-----0-----0-----0--|
D||*--------------------------|
A||---------------------------|
E||---3-----------3-----------|

--------------------------|
--------3-----------3-----|
-----2-----2-----2-----2--|
--------------------------|
--------------------------|
--2-----------2-----------|


--------0-----------0-----|
--------------------------|
-----0-----0-----0-----0--|
--------------------------|
--------------------------|
--0-----------0-----------|



--------0-----------0------||

---------------------------||
-----0-----0-----0-----0--*||
--------------------------*||
--3-----------3------------||
---------------------------||



ha c'est plus bio comme ça rolleyes.gif
Digitech Jamman , le tuto à ne pas looper Titres en 5 accords - FB Disc'Off -

Inscrivez-vous sur la Carte des membres de l'ABC et donnez votre nom après inscription Ici

#4 mkilvan

mkilvan

    Fan de Corbier

  • Membre
  • PipPip
  • 20 messages
  • Gender:Male
  • Location:13
  • Interests:Guitare<br />Harmonica

Posté 24 avril 2012 - 05:20

icon_mrgreen.gif icon_mrgreen.gif

Merci
Mkilvan


#5 Furious_D

Furious_D

    Chti nouveau

  • Newbie
  • 2 messages

Posté 24 avril 2012 - 05:24

Merci happy.gif ,
Donc pour jouer une musique dans laquelle seul les accords sont affichés, il faut se débrouiller pour trouver la bonne sonorité sad.gif




0 utilisateur(s) li(sen)t ce sujet

0 membre(s), 0 invité(s), 0 utilisateur(s) anonyme(s)