Aller au contenu


Lymrael

Inscrit(e) (le) 28 août 2008
Déconnecté Dernière activité juil. 17 2014 07:02
-----

Messages que j'ai postés

Dans le sujet : Quel matos pour enregistrer une maquette ?

28 juin 2009 - 08:30

Citation
Le micro est pas trop sensible au bruit environnant ?
)


Ah si quand même... en fait c'est surtout si tu laisse des "blancs", des passages sans musique et sans paroles, là on risque d'entendre ce qu'il se passe à coté (genre le chien qui hurle comme un fou parce qu'un abruti vient de frapper à la porte pendant la seule bonne prise de la journée,...), donc c'est assez important de préparer le terrain avant ta prise de son (donner quelques somnifères à Médor et mettre une pancarte sur la porte : "Do not disturb" ^^)
Par contre pour tout les "petit" bruits parasites (ventilo d'ordi ou zozio à travers la fenêtre), le son de ta gratte peu en principe assez bien les camoufler. Mais l'idéale est d'avoir un logiciel qui dispose d'un "NoiseGate", qui permettra d'éliminer assez bien les bruits parasite.

Citation
T'utilises toujours audacity ?


Non, disons que j'ai la chance de pouvoir utiliser Cubase, mais vu l'utilisation que j'en ai, je pense qu'Audacity peut suffire en s'acharnant un peu. Disons qu'il me facilite un peu les choses d'un coté (notamment pour le NoiseGate) mais ses possibilités sont telle que je passe des heures après la prise de son à tester des trucs, à essayé de sonner le mieux possible (souvent sans avoir le résultat recherché ^^
Donc je te conseil d'essayer ton micro avec Audacity, si ça se trouve ça sera suffisant wink3.gif

Citation
'as essayé d'enregistrer avec une guitare acoustique ou qu'avec une électro-acoust ? Parce que la mienne n'est pas électro-acoustique...(d'après certaines critiques ça rend bien...)


En fait j'ai une éléctro-acoustique, mais je dois avoir un souci avec le micro parce que dés que je la branche sur la console ou sur un ampli on entend pas toutes les cordes... blink.gif Donc je fais les prise de son avec l'Apex 435 devant la rosace (comme pour une acoustique en fait tongue.gif )

Voili voilou, si t'as d'autre question n'hésite pas ^^

P.S : En fait moi non plus je n'y connais pas grand chose, je découvre sur le tas ^^

Bonne gratte.

Dans le sujet : Quel matos pour enregistrer une maquette ?

28 juin 2009 - 03:49

Eh bien franchement Kyp j'avoue que je ne suis pas déçu de cette config'. Bon ok ce n'est pas un son pro, mais tout de même plus propre (en y passant pas mal de temps...) que ce que je faisait avant (en y passant encore plus de temps ^^). Ne reste plus qu'à m'entrainer au mixage pour trouver les bon réglage, et après de nombreuses heures je pense pouvoir arriver à un résultat vraiment satisfaisant (à mon niveau bien sûr ^^).

Merci beaucoup pour ton compliment et ton passage sur mon Myspace biggrin.gif
Les 2 premiers morceaux ("Chez moi" et "Et puis alors") sont enregistrés avec la config' citée plus haut, bien que je n'ai pas encore commandé l'interface UCA202 (mais ça ne saurai tarder ^^)

Alors bon courage et amuse-toi bien avec ton futur matos wink3.gif (tu nous fera écouter le résultat hein ??? ^^)

Bonne gratte à toi.

Dans le sujet : forme de l'arpège "chanson pour Pierrot" de Renaud

28 mai 2009 - 05:14

Salut jo80.

Alors moi je la joue avec les accords suivants :

Em > 022000
Am > x02210
B7 > x21202
D > xx0232

Mais bon, ça change rien pour le schéma de l'arpège.

Perso pour l'arpège je fais :


Couplet :

Em...........................................Am
------------------0--------------------------------------0------------------
--------0--------------0----------------------1---------------1------------
-------------0--------------0----------------------2---------------2-------
----------------------------------------------------------------------------- répéter 4 fois ces accords, puis:
-----------------------------------------0----------------------------------
--0--------------------------------------------------------------------------


B7
------------------2-----------------------------------2----------------------
--------0--------------0-------------------0---------------0----------------
-------------2--------------2-------------------2---------------2-----------
--------------------------------------1-------------------------------------- (ou bien ne jouer qu'un temps le B7 et faire un break)
---2-------------------------------------------------------------------------
-----------------------------------------------------------------------------



Refrain :

Em...........................................Am..........................................D
------------------0--------------------------------------0------------------------------------2---------------------
--------0--------------0----------------------1---------------1--------------------3--------------3----------------
-------------0--------------0----------------------2---------------2--------------------2--------------2-----------
-------------------------------------------------------------------------------0-------------------------------0----- (break)
-----------------------------------------0---------------------------------------------------------------------------
--0------------------------------------------------------------------------------------------------------------------



Voilà, j'espère que ça répondra à ta question wink3.gif

Bonne gratte smile.gif

Dans le sujet : Le Morceau Que Vous Travaillez En Ce Moment...

03 mars 2009 - 04:07

Citation
Sinon je "bosses":
> Quatre murs et un toit - Bénabar
> Aline - Christophe (mais version arrangée et personnelle tongue.gif)
> Je t'aimais, je t'aime et je t'aimerai - Francis Cabrel
> Grand-Mère - Les Ogres de Barback
> L'arménienne - Les Ogres de Barback.

Et après comme d'hab et sans arrêts des chansons de Brassens et de Renaud smile.gif


Yeah ! Quasiment un sans faute ! icon_mrgreen.gif tongue.gif

Dans le sujet : Le Morceau Que Vous Travaillez En Ce Moment...

03 mars 2009 - 02:42

Alors moi je viens de replonger quelques années en arrière en bossant "Mangez-moi" de Billy Ze Kick icon_mrgreen.gif
Bon ok, niveau difficulté ya pire, mais ça fait toujours plaisir de délirer un peu sur ce genre de morceau entre potes ^^
2 accords, une tite rythmique reggae, une tite mousse et c'est parti tongue.gif
C'est tout à fait le genre de morceau qui convient à un feu de camps entre potes laugh.gif (ahhh vivement les beaux jours... rolleyes.gif )