Aller au contenu


Photo

Ject's Theme - Nobue Uematsu (FFX)


  • Veuillez vous connecter pour répondre
Aucune réponse à ce sujet

#1 slcn1698

slcn1698

    Gratteux(se)

  • Newbie
  • Pip
  • 5 messages
  • Gender:Male
  • Location:Chez moi

Posté 14 avril 2013 - 11:05

Bonjour, bonsoir/nuit

Dans ce sujet, je demandais si quelqu'un pouvait m'aider à trouver une tab de cette musique.
La Tab étant incomplète, je l'ai modifiée et complétée (notamment les 2 guitares lors du solo), mais je ne suis pas sûr pour la fin du solo deuxième guitare.
Voici ma tab :
Code
Ject's Theme


0:05
e|-------0----------0-------------0--------------------|
B|-----0---3---3-3----3----------0---3-2-3-2-0---------|
G|-0/1---------1-1----1------0/1-----------------0-1---|
D|---------------------------------------------2-------|
A|-----------------------------------------------------|
E|-----------------------------------------------------|

0:15
e|-------0-----------0-------------0-------------------|
B|-----0---3---3-3-3---3----------0---3-2-3-2-0--------|
G|-0/1---------1-1-1---1------0/1-----------------0-1--|
D|----------------------------------------------2------|
A|-----------------------------------------------------|
E|-----------------------------------------------------|

0:25
e|-----0-2-0--0--0--0-0----------0-2-0-2-3-2-0---------|
B|-1/2--------2--2--3-2------1/2-----------------1-2---|
G|---------------------------------------------2-------|
D|-----------------------------------------------------|
A|-----------------------------------------------------|
E|-----------------------------------------------------|

0:35
e|-------0------------------------0--------------------|
B|-----0---3---3-3--2-3----------0---3-2-3-2-0---------|
G|-0/1---------1-1--1-1------0/1-----------------0-1---|
D|---------------------------------------------2-------|
A|-----------------------------------------------------|
E|-----------------------------------------------------|

0:45
e|-----2-----2-----2-5---5---4---2---2---4--------0-2-0-2-3-2-0-2-3-3-2-0--2-|
B|---0-----0-----0-----0---0---0---0---0---0--1/2----------------------------|
G|-3-----3-----3-------------------------------------------------------------|
D|---------------------------------------------------------------------------|
A|---------------------------------------------------------------------------|
E|---------------------------------------------------------------------------|

0:55
e|-------0------------------------0--------------------|
B|-----0---3---3-3---------------0---3-2-3-2-0-----0---|
G|-0/1---------1-1-----------0/1-----------------3-----|
D|---------------------------------------------2-------|
A|-----------------------------------------------------|
E|-----------------------------------------------------|




1:05 (Guitar 1)
e|-/7--5--3--0--------------------0-3-0-5-0-0-0--------|
B|-----------------------------------------------------|
G|-----------------------------------------------------|
D|-----------------------------------------------------|
A|-----------------------------------------------------|
E|-----------------------------------------------------|

1:05 (Guitar 2)
e|---------0-------------0--------------0------------0-|
B|-------3-------------3--------------3------------3---|
G|-----1-------------1--------------1------------1-----|
D|-----------------------------------------------------|
A|-----------------------------------------------------|
E|-----------------------------------------------------|

1:15 (Guitar 1)
e|-/7--5--3--0------0-3-0-5-0-0-0----------------------|
B|-----------------------------------------------------|
G|-----------------------------------------------------|
D|-----------------------------------------------------|
A|-----------------------------------------------------|
E|-----------------------------------------------------|

1:15 (Guitar 2)
e|---------0-------------0--------------0------------0-|
B|-------3-------------3--------------3------------3---|
G|-----1-------------1--------------1------------1-----|
D|-----------------------------------------------------|
A|-----------------------------------------------------|
E|-----------------------------------------------------|

1:25 (Guitar 1)
e|-/12-7-3-0-0-------------/12-7-3-0-0-------5/7-------|
B|-----------------------------------------------3-3-5-|
G|-----------------------------------------------------|
D|-----------------------------------------------------|
A|-----------------------------------------------------|
E|-----------------------------------------------------|

1:25 (Guitar 2)
e|---------0-------------0--------------0------------0-|
B|-------2-------------2--------------2------------2---|
G|-----0-------------0--------------0------------0-----|
D|-----------------------------------------------------|
A|-----------------------------------------------------|
E|-----------------------------------------------------|

1:35 (Guitar 1)
e|-12----------------------------7--7------------------|
B|------------------------------------8-5----3/5-------|
G|-----------------------------------------------------|
D|-----------------------------------------------------|
A|-----------------------------------------------------|
E|-----------------------------------------------------|

1:35 (Guitar 2)
e|---------0-------------0--------------0------------0-|
B|-------3-------------3--------------3------------3---|
G|-----1-------------1--------------1------------1-----|
D|-----------------------------------------------------|
A|-----------------------------------------------------|
E|-----------------------------------------------------|

1:45 (Guitar 1)
e|-0-2-2-5-2-5-5/7-5-2-2---0-0---------------12-10----10---------------------|
B|-----------------------------3/5-----------------12----10-10/8-5-5/3-0-3/5-|
G|---------------------------------------------------------------------------|
D|---------------------------------------------------------------------------|
A|---------------------------------------------------------------------------|
E|---------------------------------------------------------------------------|

1:45 (Guitar 2)
e|---------2-------------2--------------0------------------------------------|
B|-------0-------------0--------------2--------------------------------------|
G|-----2-------------2--------------0----------------------------------------|
D|---------------------------------------------------------------------------|
A|---------------------------------------------------------------------------|
E|---------------------------------------------------------------------------|

1:57 (Guitar 2)
e|---------0-------------0--------------0------------2-|
B|-------3-------------3--------------3------------0---|
G|-----1-------------1--------------1------------2-----|
D|-----------------------------------------------------|
A|-----------------------------------------------------|
E|-----------------------------------------------------|


Merci d'avance smile.gif




0 utilisateur(s) li(sen)t ce sujet

0 membre(s), 0 invité(s), 0 utilisateur(s) anonyme(s)