Aller au contenu


Photo

tablatures

tablatures hymne

  • Veuillez vous connecter pour répondre
1 réponse à ce sujet

#1 rounet

rounet

    Chti nouveau

  • Newbie
  • 2 messages

Posté 10 avril 2014 - 05:14

Est ce que je pourais avoir les partitions de l'hymne américain guitare please!!! :jazz:      :group:     :?: lol

 



#2 brestoa

brestoa

    Drogué de l abc

  • Modos
  • 561 messages
  • Gender:Male
  • Location:Pen Ar Bed
  • Interests:Musique, informatique

Posté 10 avril 2014 - 06:52

L'hymne national américain s'appelle "Star splangled Banner"

Tu trouveras des centaines de version sur 911tabs.

La plus connue étant celle joué par Jimi Hendrix à Woodstock en 1969

A voir  ici

 

Je te mets une tab trouvée sur le net

|--------------------------------------
|--------------------------------------
|--------------------------------------
|-------------------------------------- 
|-3-0---0-3-8---12-10-8-0-2-3---2-2----
|-----1--------------------------------

|--------------------------------------
|--------------------------------------
|--------------------------------------
|-------------------------------------- 
|-12-10-8-7---5-7-8-8-3-0-----12-12-12-
|-------------------------1------------

|--------------------------------------
|--------------------------------------
|--------------------------------------
|-------------------------------------- 
|-13-15-15---13-12-10-12-13-13---13-12-
|--------------------------------------

|--------------------------------------
|--------------------------------------
|--------------------------------------
|-------------------------------------- 
|-10-8-7---5-7-8-0-2-3---2-8-8-8-7-5-5-
|--------------------------------------

|--------------------------------------
|--------------------------------------
|--------------------------------------
|-------------------------------------- 
|-5--10-13-12-10-8-8-7---3-3-8-10-12---
|--------------------------------------

|--------------------------------------
|--------------------------------------
|--------------------------------------
|-------------------------------------- 
|-13-15---8-10-12-13-10-8--------------
|--------------------------------------





0 utilisateur(s) li(sen)t ce sujet

0 membre(s), 0 invité(s), 0 utilisateur(s) anonyme(s)