Aller au contenu


Photo

"Fais pas ci fais pas ça"- J. Dutronc - Chords


  • Veuillez vous connecter pour répondre
6 réponses à ce sujet

#1 djangologiste

djangologiste

    Santanien(ne)

  • Membre
  • PipPipPip
  • 78 messages
  • Gender:Male
  • Location:Paris

Posté 25 août 2008 - 12:18

Bonjour !

Je cherche cette tab : "Fais pas ci fais pas ça"- J. Dutronc -

Merci d'avance !


#2 tweek

tweek

    Fan de Corbier

  • Newbie
  • PipPip
  • 19 messages

Posté 25 août 2008 - 01:41

ca m'interresse aussi beaucoup !

#3 khor

khor

    Chti nouveau

  • Newbie
  • 2 messages

Posté 25 août 2008 - 06:47

Citation (djangologiste @ Mon Aug 25, 2008 14:18) <{POST_SNAPBACK}>
Bonjour !

Je cherche cette tab : "Fais pas ci fais pas ça"- J. Dutronc -

Merci d'avance !


Je n'ai trouvé que cela sur Partoch.com, si cela peut aider :
@+
Déposé par xc57


Fais pas ci fais pas ca
{E7} mi grave 0.2.2.1.3.0
{A} X.0.2.2.2.0
{D} X.X.0.2.3.2
{E} 0.2.2.1.0.0



A E A

-------------0---0----------0---0---0----0---0-----
-------------2---2------.---0---0---0----2---0---.-
-------------2---2----------1---1---1----2---0-----
-------------2---2------.---2---2---2----2---0---.- X2 a partir du E
-------------0---0----------2---2---2----0---0-----
----------------------------0---0---0--------------


E7 A D E E7 A

---0---0----0---0-------2---2----0---0----------0---0----0---0----
-.-3---3----2---2-------3---3----0---0----------3---3----2---2----
---1---1----2---2-------2---2----1---1----------1---1----2---2----
-.-2---2----2---2-------0---0----2---2----------2---2----2---2----
---2---2----0---0----------------2---2----------2---2----0---0----
---0---0-------------------------0---0----------0---0-------------



1.-------------------- 2.-------------------------
D E D E A

-----2---2-----0---0---- ----2---2----0----0---0----
-----3---3-----0---0--.- ----3---3----0----2---0--.-
-----2---2-----1---1---- ----2---2----1----2---0----
-----0---0-----2---2--.- ----0---0----2----2---0--.-
---------------2---2---- -------------2----0---0----
---------------0---0---- -------------0-------------



E7 A
D E

E7 A


D E
E7 A

D E
E7 A

D E
A E

A E

A E
ETC...



#4 tweek

tweek

    Fan de Corbier

  • Newbie
  • PipPip
  • 19 messages

Posté 26 août 2008 - 08:05

si quelqu'un saurais faire une ptite video smile.gif

#5 djangologiste

djangologiste

    Santanien(ne)

  • Membre
  • PipPipPip
  • 78 messages
  • Gender:Male
  • Location:Paris

Posté 30 août 2008 - 11:17


Ca a l'air d'être ça mais je n'arrive pas à le faire sonner. Sans aller jusqu'a une vidéo, idéalement, les paroles en dessous des accords m'aideraient beaucoup.

Merci en tout cas !

Benj'

#6 djangologiste

djangologiste

    Santanien(ne)

  • Membre
  • PipPipPip
  • 78 messages
  • Gender:Male
  • Location:Paris

Posté 30 août 2008 - 04:18

Ca doit pouvoir se jouer comme ça...

http://fr.youtube.co...h?v=Gct-SA1fhVs

Je ne joue pas le La majeur, ça me paraissait mieux comme ça.

#7 HerveB

HerveB

    Fan de Corbier

  • Membre
  • PipPip
  • 12 messages

Posté 11 décembre 2011 - 05:27

Ce morceau revenant bien à la mode avec la chouette série du même nom, je vous propose ma version de la tablature de fais pas ci fais pas ça sur mon blog.
A taaAaable !!!
Tablatures-guitare.net : des tablatures pour votre guitare, votre ukulélé...




0 utilisateur(s) li(sen)t ce sujet

0 membre(s), 0 invité(s), 0 utilisateur(s) anonyme(s)