Aller au contenu


Photo

J'ai La Riff Mais Pas Le Titre


  • Veuillez vous connecter pour répondre
7 réponses à ce sujet

#1 Laurent Fazer

Laurent Fazer

    Chti nouveau

  • Newbie
  • 4 messages

Posté 06 août 2006 - 08:25

Salut tout le monde,
je ne connais pas le titre, j'ai la musique dans la tete. Ca ressemble un peu à la chanson Ramsès de Au Bonheur des Dames.

|---------------------------------------------------------------------------------------|
|---------------------------------------------------------------------------------------|
|---------------------------------------------------------------------------------------|
|-------3-3-3--3-3-3---3-3-3--3-3-3---3-3-3--3-3-3---3-3-3--3-3-3---------|
|--2-3-----------------3-----------------3-----------------3------------------2--0--|
|---------------------------------------------------------------------------------------|

Si qlq1 à une idée, je suis preneur.

Merci A+

#2 douky

douky

    Santanien(ne)

  • Membre
  • PipPipPip
  • 96 messages

Posté 06 août 2006 - 08:29

quel style et quel rythme?

#3 Laurent Fazer

Laurent Fazer

    Chti nouveau

  • Newbie
  • 4 messages

Posté 07 août 2006 - 08:32

CITATION(douky @ Sun Aug 06, 2006 10:29) Voir le message

quel style et quel rythme?



Je viens de voir une erreur
Je rajoute les temps en dessous

|---------------------------------------------------------------------------|
|---------------------------------------------------------------------------|
|---------------------------------------------------------------------------|
|-------3-3-3-3-3---3-3-3-3-3---3-3-3-3-3---3-3-3-3-3-----------|
|--2-3--------------3-------------3-------------3--------------2--0-----|
|---------------------------------------------------------------------------|
------!------!-------!-------!------!-------!------!------!-------!---!----


En gros, c'est un rhytme à 120 . Le rythme de batterie ressemble a la cadence d'un galop de cheval

C'est un peu style western mais un peu rock aussi, je ne serais pas bien determiner le style en fait scratch.gif

#4 douky

douky

    Santanien(ne)

  • Membre
  • PipPipPip
  • 96 messages

Posté 08 août 2006 - 09:39

Me dis rien... T'as pas moyen de faire un enregistrement?

#5 Laurent Fazer

Laurent Fazer

    Chti nouveau

  • Newbie
  • 4 messages

Posté 08 août 2006 - 12:26

CITATION(douky @ Tue Aug 08, 2006 11:39) Voir le message

Me dis rien... T'as pas moyen de faire un enregistrement?

si mais comment le poster?

#6 douky

douky

    Santanien(ne)

  • Membre
  • PipPipPip
  • 96 messages

Posté 08 août 2006 - 12:27

up le sur un ftp ou alors via rapidshare ou un equivalent

#7 Laurent Fazer

Laurent Fazer

    Chti nouveau

  • Newbie
  • 4 messages

Posté 25 août 2006 - 04:25

Ugh

Ami de moi avoir trouver reponse.
Titre: Apache
Groupe: The Shadows

Ben oui, je sais, on n'a pas le droit d'oublier ça. Désolé. unsure.gif


Merci Douky d'avoir essayer de trouver.

A+

Et une blaque de Coluche pour finir. biggrin.gif

"Vous savez pourquoi les Apaches criaient sur leurs chevaux quand ils attaquaint ??

Sur leur chevaux, ils n'avaient pas de selles mais ils n'avaient pas non plus."
Merci Michel

#8 Zolive

Zolive

    Joyeux Troubadour

  • Animateur
  • 1 943 messages

Posté 25 août 2006 - 05:29

whaou c'est la dessus que j'ai fait mes armes happy.gif




0 utilisateur(s) li(sen)t ce sujet

0 membre(s), 0 invité(s), 0 utilisateur(s) anonyme(s)